Skip to content

HTTPS clone URL

Subversion checkout URL

You can clone with HTTPS or Subversion.

Download ZIP
tree: 94632688fe
Fetching contributors…

Cannot retrieve contributors at this time

162 lines (131 sloc) 9.093 kb
Dm F6 Em6 Gm F6 F A# F6 Em
D:-----------------|-------------------------------------------------|
B:-----------3-----|--2-------5-------3-------6-------6--------3---2-|
G:-----------2-----|--0-------3-------2-------5-------7--------2---0-|
D:-0-----3-------2-|------5-------3------3/7------8------7-5-3---2---|
Dm F6 Em6 Gm6 F6 F A#
D:-----------------|----------------------------------------------------|
B:-----------3-----|--2-------5-------3-------6-------6---------8----9--|
G:-----------2-----|--0-------3-------2-------5-------7---------9----10-|
D:-0-----3-------2-|------5-------3------3/7------8------8-9-10---11----|
Dm C A# Dm A# C C#
D:-----------------|-------------------------------------------------------|
B:------10-------6-|-----8-------8-------6-------5-------6---------8----9--|
G:------10-------7-|-----9-------7-------7-------7-------7---------9----10-|
D:-12--------7-----|10-------8-------8-------6-------8------8-9-10---11----|
Dm C A# Dm A# A#dim
D:-----------------|---------------------------------------------|
B:------10-------6-|-----8-------8-------6-------5-------4-------|
G:------10-------7-|-----9-------7-------7-------7-------6-------|
D:-12--------7-----|10-------8-------8-------6-------8------8-5-1|
D:---3-------------|--3------------3--------------3---------|
B:---1-------3-----|--2-------2----1--------3-----2---------|
G:-2---0-----2---3-|----2-0---3--2----0-----2---3---2-0-----|
D:-------3-0-------|--------1-----------3-0-------------1---|
D:---3-------------|--3-----------10-11-10-11--11-8--8-7-8-8-7---6--5--3----|
B:---1-------3-----|--2-------2----------------10-8--------6-6---5-------3--|
G:-2---0-----2---3-|----2-0---3---------------------------------------------|
D:-------3-0-------|--------1-----------------------------------------------|
D:-------3-------3-|-------2-------5-------3-------7-------8-------------3---|
B:------3-------3--|------2-------5-------3-------6-------6-------------2----|
G:-----2-------2---|-----0-------3-------2-------5-------7-------------3-----|
D:-0--0----3--3 ---|-2--2----5--5----3--3----7--7----8--8------7-5-3--3----2-|
D:-------3-------3-|-------2-------5-------3-------7-------8--------------10---|
B:------3-------3--|------2-------5-------3-------6-------6--------------8-----|
G:-----2-------2---|-----0-------3-------2-------5-------7--------------9----7-|
D:-0--0----3--3 ---|-2--2----5--5----3--3----7--7----8--8------8-9-10-10-------|
D:-----------------|----------------|-----------------|----------------|
B:-8-6---6---------|8-6---6---------|8----------------|8---------------|
G:-----7---7-------|----7-----------|--9-7-9----------|--7-7-7---------|
D:-------------7---|--------7---7/10|--------10---7---|--------8---8---|
G:-----------0---0-|----------0---0-|-----------0---0-|----------0---0-|
D:-----------------|----------------|----------------|-----------------|
B:-8---------------|8---------------|8---------------|-----------------|
G:---7-7-6---------|--5-7-5---------|--7-7-6---------|7-9-7----9-7-7-7-|
D:---------7---6---|--------6---8---|--------7---8---|------10---------|
G:-----------0---0-|----------0---0-|----------0---0-|-----------------|
D:-----------------|----------------|----------------|----------------|
B:-8---------------|8---------------|8---------------|8---------------|
G:---7-7-6---------|--7-7-7---------|--9-7-8---------|--7-7-7---------|
D:---------7---6---|--------6--7/10-|--------9---8---|--------8---8---|
G:-----------0---0-|----------0---0-|----------0---0-|----------0---0-|
D:-----------------|----------------|----------------|----------------|
B:-8---------------|8---------------|8---------------|----------------|
G:---7-7-6---------|--5-7-5---------|--5-7-5---------|--8---8-7-8-----|
D:---------7---6---|--------6---8---|--------7---6---|8-----------8---|
G:-----------0---0-|----------0---0-|----------0---0-|----0---------0-|
D:--------7--5-3-0-|--3-------------|--3-------------|--3-------------|
B:-8/10---6--------|--2---------3---|--1---------3---|--2-------------|
G:-----------------|3---2-0-----2---|2---0-------2---|3---2-0---------|
D:-----------------|--------1-------|------3-0-------|--------1-------|
D:---3-------------|---3-------------|--10-11-10-11---11-8--8-7-8-8-7---6--5--3----|
B:---1---------3---|---2--------3----|----------------10-8--------6-6---5-------3--|
G:-2---0-------2---|/3---2-0----2----|---------------------------------------------|
D:-------3-0-------|---------1-------|---------------------------------------------|
1:48
D:-7---------7-----|-----------------|-------------------------------|
B:---8-6-8-----6---|6-8-6-6----6-----|8--8-8-8-8-8-8--6-8-6-8b9-6-8-8|
G:-----------------|---------7-------|-------------------------------|
D:-----------------|-----------------|-------------------------------|
D:------------------|----------------|-------------------------------------------|
B:-8b9b8--6------6-8|8b9b8--6--8-----|--6-8-8b9b8-8b9b8-8b9b8-10b-11b-13b-14b-15b|
G:----------7--7----|----------------|7------------------------------------------|
D:------------------|----------------|-------------------------------------------|
D:-------15-----------15b16-15---|--------------------------------|
B:-13-15----15-13-15-----------15|14-13--12-11--10-9--10-9--------|
G:-------------------------------|-------------------------10----9|
D:-------------------------------|----------------------------11--|
D:-----------------|-----------------|----------------|
B:-10b11-10-8------|10--8------------|11--10-8--------|
G:------------8----|------10-7-------|---------8------|
D:-----------------|-----------------|----------------|
pause
D:-----------------|----------------|--10-11-10-11------10--8-7-8--7--6--5-3-0|
B:---9b10-8--------|10b11-10-8------|-----------------10---6------5--5--5-----|
G:----------10-7---|-----------8----|---------------9-------------------------|
D:-----------------|----------------|-----------------------------------------|
Incredible Bass solo
D:-------3-------3-|-------2-------5-------3-------7-------8-------------3---|
B:------3-------3--|------2-------5-------3-------6-------6-------------2----|
G:-----2-------2---|-----0-------3-------2-------5-------7-------------3-----|
D:-0--0----3--3 ---|-2--2----5--5----3--3----7--7----8--8------7-5-3--3----2-|
D:-------3-------3-|-------2-------5-------3-------7-------8--------------10---|
B:------3-------3--|------2-------5-------3-------6-------6--------------8-----|
G:-----2-------2---|-----0-------3-------2-------5-------7--------------9----7-|
D:-0--0----3--3 ---|-2--2----5--5----3--3----7--7----8--8------8-9-10-10-------|
D:-----------------|----------------|----------------|----------------|
B:-8-6---6---------|8-6---6---------|8---------------|8---------------|
G:-----7---7-------|----7-----------|--9-7-9---------|--7-7-7---------|
D:-------------7---|--------7---7/10|--------9---8---|--------8---7---|
G:-----------0---0-|----------0---0-|----------0---0-|----------0---0-|
D:-----------------|----------------|----------------|-----------------|
B:-8---------------|8---------------|8---------------|-----------------|
G:---7-7-6---------|--5-7-5---------|--7-7-6---------|7-9-7----9-7-7-7-|
D:---------7---6---|--------6---8---|--------7---8---|------10---------|
G:-----------0---0-|----------0---0-|----------0---0-|-----------------|
D:-----------------|----------------|----------------|----------------|
B:-8-6---6---------|8-6---6---------|8---------------|8---------------|
G:-----7---7-------|----7-----------|--9-7-9---------|--7-7-7---------|
D:-------------7---|--------7---7/10|--------9---8---|--------8---7---|
G:-----------0---0-|----------0---0-|----------0---0-|----------0---0-|
D:-----------------|----------------|----------------|----------------|
B:-8---------------|8---------------|8---------------|----8-----------|
G:---7-7-6---------|--5-7-5---------|--7-7-6---------|--7---7---7-----|
D:---------7---6---|--------6---8---|--------7---8---|6-------6-------|
G:-----------0---0-|----------0---0-|----------0---0-|----------------|
D:---3-------------|--3-------------|--3-------------|--3-------------|
B:---1---------3---|--2---------3---|--1---------3---|--2-------------|
G:-2---0-------2---|3---2-0-----2---|2---0-------2---|3---2-0---------|
D:-------3-0-------|--------1-------|------3-0-------|--------1-------|
D:---3-------------|---3------------|--10-11-10-11--------8-7-8------|
B:---1---------3---|---2--------3---|----------------10----------6---|
G:-2---0-------2---|/3---2-0----2---|----------------9-----------7---|
D:-------3-0-------|---------1------|--------------------------------|
D:-7---5-----------|-----------------------------------|-------9-----|
B:-------6-4---4---|6--8-6-8---10---|11----12-13-14-13-|14-11--8-----|
G:-----------7-----|-----------------------------------|---10--------|
D:-----------------|-----------------------------------|-------------|
D:-------8----11---------------|
B:-------8----10-------12-14-15|
G:--8-9----10----12-14---------|
D:-----------------------------|
Jump to Line
Something went wrong with that request. Please try again.